ISO-10303-21;
HEADER;
/* Generated by software containing ST-Developer
 * from STEP Tools, Inc. (www.steptools.com) 
 */

FILE_DESCRIPTION(
/* description */ (''),
/* implementation_level */ '2;1');

FILE_NAME(
/* name */ 
'D:/ChrysionFTP/public/html/Academy/Assignments/comp/composites.step',
/* time_stamp */ '2017-10-12T12:25:08+03:00',
/* author */ (''),
/* organization */ (''),
/* preprocessor_version */ 'ST-DEVELOPER v16.13',
/* originating_system */ 'Autodesk Translation Framework v6.1.1.50',
/* authorisation */ '');

FILE_SCHEMA (('AUTOMOTIVE_DESIGN { 1 0 10303 214 3 1 1 }'));
ENDSEC;

DATA;
#10=MECHANICAL_DESIGN_GEOMETRIC_PRESENTATION_REPRESENTATION('',(#13),#721);
#11=SHAPE_REPRESENTATION_RELATIONSHIP('SRR','None',#727,#12);
#12=ADVANCED_BREP_SHAPE_REPRESENTATION('',(#14),#720);
#13=STYLED_ITEM('',(#736),#14);
#14=MANIFOLD_SOLID_BREP('Body1',#437);
#15=FACE_BOUND('',#72,.T.);
#16=PLANE('',#445);
#17=PLANE('',#452);
#18=PLANE('',#459);
#19=PLANE('',#460);
#20=PLANE('',#461);
#21=PLANE('',#462);
#22=PLANE('',#463);
#23=PLANE('',#464);
#24=PLANE('',#465);
#25=PLANE('',#466);
#26=PLANE('',#467);
#27=PLANE('',#468);
#28=PLANE('',#469);
#29=PLANE('',#470);
#30=PLANE('',#471);
#31=PLANE('',#472);
#32=PLANE('',#473);
#33=FACE_OUTER_BOUND('',#56,.T.);
#34=FACE_OUTER_BOUND('',#57,.T.);
#35=FACE_OUTER_BOUND('',#58,.T.);
#36=FACE_OUTER_BOUND('',#59,.T.);
#37=FACE_OUTER_BOUND('',#60,.T.);
#38=FACE_OUTER_BOUND('',#61,.T.);
#39=FACE_OUTER_BOUND('',#62,.T.);
#40=FACE_OUTER_BOUND('',#63,.T.);
#41=FACE_OUTER_BOUND('',#64,.T.);
#42=FACE_OUTER_BOUND('',#65,.T.);
#43=FACE_OUTER_BOUND('',#66,.T.);
#44=FACE_OUTER_BOUND('',#67,.T.);
#45=FACE_OUTER_BOUND('',#68,.T.);
#46=FACE_OUTER_BOUND('',#69,.T.);
#47=FACE_OUTER_BOUND('',#70,.T.);
#48=FACE_OUTER_BOUND('',#71,.T.);
#49=FACE_OUTER_BOUND('',#73,.T.);
#50=FACE_OUTER_BOUND('',#74,.T.);
#51=FACE_OUTER_BOUND('',#75,.T.);
#52=FACE_OUTER_BOUND('',#76,.T.);
#53=FACE_OUTER_BOUND('',#77,.T.);
#54=FACE_OUTER_BOUND('',#78,.T.);
#55=FACE_OUTER_BOUND('',#79,.T.);
#56=EDGE_LOOP('',(#288,#289,#290,#291));
#57=EDGE_LOOP('',(#292,#293,#294,#295));
#58=EDGE_LOOP('',(#296,#297,#298,#299,#300,#301,#302,#303,#304,#305,#306,
#307));
#59=EDGE_LOOP('',(#308,#309,#310,#311));
#60=EDGE_LOOP('',(#312,#313,#314,#315));
#61=EDGE_LOOP('',(#316,#317,#318,#319));
#62=EDGE_LOOP('',(#320,#321,#322,#323));
#63=EDGE_LOOP('',(#324,#325,#326,#327));
#64=EDGE_LOOP('',(#328,#329,#330,#331,#332,#333,#334,#335,#336,#337,#338,
#339));
#65=EDGE_LOOP('',(#340,#341,#342,#343));
#66=EDGE_LOOP('',(#344,#345,#346,#347));
#67=EDGE_LOOP('',(#348,#349,#350,#351));
#68=EDGE_LOOP('',(#352,#353,#354,#355));
#69=EDGE_LOOP('',(#356,#357,#358,#359));
#70=EDGE_LOOP('',(#360,#361,#362,#363));
#71=EDGE_LOOP('',(#364,#365,#366,#367));
#72=EDGE_LOOP('',(#368,#369,#370,#371,#372,#373,#374,#375));
#73=EDGE_LOOP('',(#376,#377,#378,#379));
#74=EDGE_LOOP('',(#380,#381,#382,#383));
#75=EDGE_LOOP('',(#384,#385,#386,#387));
#76=EDGE_LOOP('',(#388,#389,#390,#391));
#77=EDGE_LOOP('',(#392,#393,#394,#395,#396,#397,#398,#399));
#78=EDGE_LOOP('',(#400,#401,#402,#403));
#79=EDGE_LOOP('',(#404,#405,#406,#407));
#80=LINE('',#600,#128);
#81=LINE('',#603,#129);
#82=LINE('',#608,#130);
#83=LINE('',#612,#131);
#84=LINE('',#614,#132);
#85=LINE('',#616,#133);
#86=LINE('',#618,#134);
#87=LINE('',#620,#135);
#88=LINE('',#628,#136);
#89=LINE('',#632,#137);
#90=LINE('',#636,#138);
#91=LINE('',#637,#139);
#92=LINE('',#641,#140);
#93=LINE('',#644,#141);
#94=LINE('',#648,#142);
#95=LINE('',#652,#143);
#96=LINE('',#654,#144);
#97=LINE('',#656,#145);
#98=LINE('',#658,#146);
#99=LINE('',#659,#147);
#100=LINE('',#661,#148);
#101=LINE('',#663,#149);
#102=LINE('',#667,#150);
#103=LINE('',#669,#151);
#104=LINE('',#671,#152);
#105=LINE('',#672,#153);
#106=LINE('',#675,#154);
#107=LINE('',#677,#155);
#108=LINE('',#678,#156);
#109=LINE('',#681,#157);
#110=LINE('',#683,#158);
#111=LINE('',#684,#159);
#112=LINE('',#686,#160);
#113=LINE('',#687,#161);
#114=LINE('',#690,#162);
#115=LINE('',#692,#163);
#116=LINE('',#694,#164);
#117=LINE('',#696,#165);
#118=LINE('',#697,#166);
#119=LINE('',#698,#167);
#120=LINE('',#701,#168);
#121=LINE('',#703,#169);
#122=LINE('',#704,#170);
#123=LINE('',#707,#171);
#124=LINE('',#708,#172);
#125=LINE('',#711,#173);
#126=LINE('',#712,#174);
#127=LINE('',#715,#175);
#128=VECTOR('',#480,10.);
#129=VECTOR('',#483,10.);
#130=VECTOR('',#488,10.);
#131=VECTOR('',#493,10.);
#132=VECTOR('',#494,10.);
#133=VECTOR('',#495,10.);
#134=VECTOR('',#496,10.);
#135=VECTOR('',#497,10.);
#136=VECTOR('',#504,10.);
#137=VECTOR('',#509,10.);
#138=VECTOR('',#514,10.);
#139=VECTOR('',#515,10.);
#140=VECTOR('',#520,10.);
#141=VECTOR('',#523,10.);
#142=VECTOR('',#528,10.);
#143=VECTOR('',#533,10.);
#144=VECTOR('',#534,10.);
#145=VECTOR('',#535,10.);
#146=VECTOR('',#536,10.);
#147=VECTOR('',#537,10.);
#148=VECTOR('',#540,10.);
#149=VECTOR('',#543,10.);
#150=VECTOR('',#546,10.);
#151=VECTOR('',#547,10.);
#152=VECTOR('',#548,10.);
#153=VECTOR('',#549,10.);
#154=VECTOR('',#552,10.);
#155=VECTOR('',#553,10.);
#156=VECTOR('',#554,10.);
#157=VECTOR('',#557,10.);
#158=VECTOR('',#558,10.);
#159=VECTOR('',#559,10.);
#160=VECTOR('',#562,10.);
#161=VECTOR('',#563,10.);
#162=VECTOR('',#566,10.);
#163=VECTOR('',#567,10.);
#164=VECTOR('',#568,10.);
#165=VECTOR('',#569,10.);
#166=VECTOR('',#570,10.);
#167=VECTOR('',#571,10.);
#168=VECTOR('',#574,10.);
#169=VECTOR('',#575,10.);
#170=VECTOR('',#576,10.);
#171=VECTOR('',#579,10.);
#172=VECTOR('',#580,10.);
#173=VECTOR('',#583,10.);
#174=VECTOR('',#584,10.);
#175=VECTOR('',#589,10.);
#176=CIRCLE('',#440,10.);
#177=CIRCLE('',#441,10.);
#178=CIRCLE('',#443,15.);
#179=CIRCLE('',#444,15.);
#180=CIRCLE('',#446,10.);
#181=CIRCLE('',#447,15.);
#182=CIRCLE('',#448,10.);
#183=CIRCLE('',#449,10.);
#184=CIRCLE('',#451,10.);
#185=CIRCLE('',#454,10.);
#186=CIRCLE('',#456,15.);
#187=CIRCLE('',#458,10.);
#188=VERTEX_POINT('',#596);
#189=VERTEX_POINT('',#597);
#190=VERTEX_POINT('',#599);
#191=VERTEX_POINT('',#601);
#192=VERTEX_POINT('',#605);
#193=VERTEX_POINT('',#607);
#194=VERTEX_POINT('',#611);
#195=VERTEX_POINT('',#613);
#196=VERTEX_POINT('',#615);
#197=VERTEX_POINT('',#617);
#198=VERTEX_POINT('',#619);
#199=VERTEX_POINT('',#621);
#200=VERTEX_POINT('',#623);
#201=VERTEX_POINT('',#625);
#202=VERTEX_POINT('',#627);
#203=VERTEX_POINT('',#631);
#204=VERTEX_POINT('',#635);
#205=VERTEX_POINT('',#639);
#206=VERTEX_POINT('',#643);
#207=VERTEX_POINT('',#647);
#208=VERTEX_POINT('',#651);
#209=VERTEX_POINT('',#653);
#210=VERTEX_POINT('',#655);
#211=VERTEX_POINT('',#657);
#212=VERTEX_POINT('',#665);
#213=VERTEX_POINT('',#666);
#214=VERTEX_POINT('',#668);
#215=VERTEX_POINT('',#670);
#216=VERTEX_POINT('',#674);
#217=VERTEX_POINT('',#676);
#218=VERTEX_POINT('',#680);
#219=VERTEX_POINT('',#682);
#220=VERTEX_POINT('',#689);
#221=VERTEX_POINT('',#691);
#222=VERTEX_POINT('',#693);
#223=VERTEX_POINT('',#695);
#224=VERTEX_POINT('',#700);
#225=VERTEX_POINT('',#702);
#226=VERTEX_POINT('',#706);
#227=VERTEX_POINT('',#710);
#228=EDGE_CURVE('',#188,#189,#176,.T.);
#229=EDGE_CURVE('',#189,#190,#80,.T.);
#230=EDGE_CURVE('',#190,#191,#177,.T.);
#231=EDGE_CURVE('',#191,#188,#81,.T.);
#232=EDGE_CURVE('',#192,#191,#178,.T.);
#233=EDGE_CURVE('',#193,#192,#82,.T.);
#234=EDGE_CURVE('',#188,#193,#179,.T.);
#235=EDGE_CURVE('',#194,#190,#83,.T.);
#236=EDGE_CURVE('',#195,#194,#84,.T.);
#237=EDGE_CURVE('',#195,#196,#85,.T.);
#238=EDGE_CURVE('',#197,#196,#86,.T.);
#239=EDGE_CURVE('',#198,#197,#87,.T.);
#240=EDGE_CURVE('',#199,#198,#180,.T.);
#241=EDGE_CURVE('',#199,#200,#181,.T.);
#242=EDGE_CURVE('',#201,#200,#182,.T.);
#243=EDGE_CURVE('',#202,#201,#88,.T.);
#244=EDGE_CURVE('',#192,#202,#183,.T.);
#245=EDGE_CURVE('',#202,#203,#89,.T.);
#246=EDGE_CURVE('',#203,#193,#184,.T.);
#247=EDGE_CURVE('',#204,#201,#90,.T.);
#248=EDGE_CURVE('',#204,#203,#91,.T.);
#249=EDGE_CURVE('',#205,#204,#185,.T.);
#250=EDGE_CURVE('',#200,#205,#92,.T.);
#251=EDGE_CURVE('',#206,#199,#93,.T.);
#252=EDGE_CURVE('',#205,#206,#186,.T.);
#253=EDGE_CURVE('',#198,#207,#94,.T.);
#254=EDGE_CURVE('',#207,#206,#187,.T.);
#255=EDGE_CURVE('',#208,#207,#95,.T.);
#256=EDGE_CURVE('',#209,#208,#96,.T.);
#257=EDGE_CURVE('',#209,#210,#97,.T.);
#258=EDGE_CURVE('',#211,#210,#98,.T.);
#259=EDGE_CURVE('',#189,#211,#99,.T.);
#260=EDGE_CURVE('',#208,#197,#100,.T.);
#261=EDGE_CURVE('',#194,#211,#101,.T.);
#262=EDGE_CURVE('',#212,#213,#102,.T.);
#263=EDGE_CURVE('',#213,#214,#103,.T.);
#264=EDGE_CURVE('',#215,#214,#104,.T.);
#265=EDGE_CURVE('',#212,#215,#105,.T.);
#266=EDGE_CURVE('',#216,#212,#106,.T.);
#267=EDGE_CURVE('',#217,#215,#107,.T.);
#268=EDGE_CURVE('',#216,#217,#108,.T.);
#269=EDGE_CURVE('',#218,#216,#109,.T.);
#270=EDGE_CURVE('',#219,#217,#110,.T.);
#271=EDGE_CURVE('',#218,#219,#111,.T.);
#272=EDGE_CURVE('',#213,#218,#112,.T.);
#273=EDGE_CURVE('',#214,#219,#113,.T.);
#274=EDGE_CURVE('',#220,#195,#114,.T.);
#275=EDGE_CURVE('',#221,#220,#115,.T.);
#276=EDGE_CURVE('',#222,#221,#116,.T.);
#277=EDGE_CURVE('',#223,#222,#117,.T.);
#278=EDGE_CURVE('',#210,#223,#118,.T.);
#279=EDGE_CURVE('',#196,#209,#119,.T.);
#280=EDGE_CURVE('',#222,#224,#120,.T.);
#281=EDGE_CURVE('',#225,#224,#121,.T.);
#282=EDGE_CURVE('',#225,#223,#122,.T.);
#283=EDGE_CURVE('',#221,#226,#123,.T.);
#284=EDGE_CURVE('',#224,#226,#124,.T.);
#285=EDGE_CURVE('',#220,#227,#125,.T.);
#286=EDGE_CURVE('',#226,#227,#126,.T.);
#287=EDGE_CURVE('',#227,#225,#127,.T.);
#288=ORIENTED_EDGE('',*,*,#228,.T.);
#289=ORIENTED_EDGE('',*,*,#229,.T.);
#290=ORIENTED_EDGE('',*,*,#230,.T.);
#291=ORIENTED_EDGE('',*,*,#231,.T.);
#292=ORIENTED_EDGE('',*,*,#231,.F.);
#293=ORIENTED_EDGE('',*,*,#232,.F.);
#294=ORIENTED_EDGE('',*,*,#233,.F.);
#295=ORIENTED_EDGE('',*,*,#234,.F.);
#296=ORIENTED_EDGE('',*,*,#230,.F.);
#297=ORIENTED_EDGE('',*,*,#235,.F.);
#298=ORIENTED_EDGE('',*,*,#236,.F.);
#299=ORIENTED_EDGE('',*,*,#237,.T.);
#300=ORIENTED_EDGE('',*,*,#238,.F.);
#301=ORIENTED_EDGE('',*,*,#239,.F.);
#302=ORIENTED_EDGE('',*,*,#240,.F.);
#303=ORIENTED_EDGE('',*,*,#241,.T.);
#304=ORIENTED_EDGE('',*,*,#242,.F.);
#305=ORIENTED_EDGE('',*,*,#243,.F.);
#306=ORIENTED_EDGE('',*,*,#244,.F.);
#307=ORIENTED_EDGE('',*,*,#232,.T.);
#308=ORIENTED_EDGE('',*,*,#244,.T.);
#309=ORIENTED_EDGE('',*,*,#245,.T.);
#310=ORIENTED_EDGE('',*,*,#246,.T.);
#311=ORIENTED_EDGE('',*,*,#233,.T.);
#312=ORIENTED_EDGE('',*,*,#245,.F.);
#313=ORIENTED_EDGE('',*,*,#243,.T.);
#314=ORIENTED_EDGE('',*,*,#247,.F.);
#315=ORIENTED_EDGE('',*,*,#248,.T.);
#316=ORIENTED_EDGE('',*,*,#249,.T.);
#317=ORIENTED_EDGE('',*,*,#247,.T.);
#318=ORIENTED_EDGE('',*,*,#242,.T.);
#319=ORIENTED_EDGE('',*,*,#250,.T.);
#320=ORIENTED_EDGE('',*,*,#250,.F.);
#321=ORIENTED_EDGE('',*,*,#241,.F.);
#322=ORIENTED_EDGE('',*,*,#251,.F.);
#323=ORIENTED_EDGE('',*,*,#252,.F.);
#324=ORIENTED_EDGE('',*,*,#240,.T.);
#325=ORIENTED_EDGE('',*,*,#253,.T.);
#326=ORIENTED_EDGE('',*,*,#254,.T.);
#327=ORIENTED_EDGE('',*,*,#251,.T.);
#328=ORIENTED_EDGE('',*,*,#228,.F.);
#329=ORIENTED_EDGE('',*,*,#234,.T.);
#330=ORIENTED_EDGE('',*,*,#246,.F.);
#331=ORIENTED_EDGE('',*,*,#248,.F.);
#332=ORIENTED_EDGE('',*,*,#249,.F.);
#333=ORIENTED_EDGE('',*,*,#252,.T.);
#334=ORIENTED_EDGE('',*,*,#254,.F.);
#335=ORIENTED_EDGE('',*,*,#255,.F.);
#336=ORIENTED_EDGE('',*,*,#256,.F.);
#337=ORIENTED_EDGE('',*,*,#257,.T.);
#338=ORIENTED_EDGE('',*,*,#258,.F.);
#339=ORIENTED_EDGE('',*,*,#259,.F.);
#340=ORIENTED_EDGE('',*,*,#253,.F.);
#341=ORIENTED_EDGE('',*,*,#239,.T.);
#342=ORIENTED_EDGE('',*,*,#260,.F.);
#343=ORIENTED_EDGE('',*,*,#255,.T.);
#344=ORIENTED_EDGE('',*,*,#229,.F.);
#345=ORIENTED_EDGE('',*,*,#259,.T.);
#346=ORIENTED_EDGE('',*,*,#261,.F.);
#347=ORIENTED_EDGE('',*,*,#235,.T.);
#348=ORIENTED_EDGE('',*,*,#262,.T.);
#349=ORIENTED_EDGE('',*,*,#263,.T.);
#350=ORIENTED_EDGE('',*,*,#264,.F.);
#351=ORIENTED_EDGE('',*,*,#265,.F.);
#352=ORIENTED_EDGE('',*,*,#266,.T.);
#353=ORIENTED_EDGE('',*,*,#265,.T.);
#354=ORIENTED_EDGE('',*,*,#267,.F.);
#355=ORIENTED_EDGE('',*,*,#268,.F.);
#356=ORIENTED_EDGE('',*,*,#269,.T.);
#357=ORIENTED_EDGE('',*,*,#268,.T.);
#358=ORIENTED_EDGE('',*,*,#270,.F.);
#359=ORIENTED_EDGE('',*,*,#271,.F.);
#360=ORIENTED_EDGE('',*,*,#272,.T.);
#361=ORIENTED_EDGE('',*,*,#271,.T.);
#362=ORIENTED_EDGE('',*,*,#273,.F.);
#363=ORIENTED_EDGE('',*,*,#263,.F.);
#364=ORIENTED_EDGE('',*,*,#273,.T.);
#365=ORIENTED_EDGE('',*,*,#270,.T.);
#366=ORIENTED_EDGE('',*,*,#267,.T.);
#367=ORIENTED_EDGE('',*,*,#264,.T.);
#368=ORIENTED_EDGE('',*,*,#237,.F.);
#369=ORIENTED_EDGE('',*,*,#274,.F.);
#370=ORIENTED_EDGE('',*,*,#275,.F.);
#371=ORIENTED_EDGE('',*,*,#276,.F.);
#372=ORIENTED_EDGE('',*,*,#277,.F.);
#373=ORIENTED_EDGE('',*,*,#278,.F.);
#374=ORIENTED_EDGE('',*,*,#257,.F.);
#375=ORIENTED_EDGE('',*,*,#279,.F.);
#376=ORIENTED_EDGE('',*,*,#277,.T.);
#377=ORIENTED_EDGE('',*,*,#280,.T.);
#378=ORIENTED_EDGE('',*,*,#281,.F.);
#379=ORIENTED_EDGE('',*,*,#282,.T.);
#380=ORIENTED_EDGE('',*,*,#276,.T.);
#381=ORIENTED_EDGE('',*,*,#283,.T.);
#382=ORIENTED_EDGE('',*,*,#284,.F.);
#383=ORIENTED_EDGE('',*,*,#280,.F.);
#384=ORIENTED_EDGE('',*,*,#275,.T.);
#385=ORIENTED_EDGE('',*,*,#285,.T.);
#386=ORIENTED_EDGE('',*,*,#286,.F.);
#387=ORIENTED_EDGE('',*,*,#283,.F.);
#388=ORIENTED_EDGE('',*,*,#279,.T.);
#389=ORIENTED_EDGE('',*,*,#256,.T.);
#390=ORIENTED_EDGE('',*,*,#260,.T.);
#391=ORIENTED_EDGE('',*,*,#238,.T.);
#392=ORIENTED_EDGE('',*,*,#278,.T.);
#393=ORIENTED_EDGE('',*,*,#282,.F.);
#394=ORIENTED_EDGE('',*,*,#287,.F.);
#395=ORIENTED_EDGE('',*,*,#285,.F.);
#396=ORIENTED_EDGE('',*,*,#274,.T.);
#397=ORIENTED_EDGE('',*,*,#236,.T.);
#398=ORIENTED_EDGE('',*,*,#261,.T.);
#399=ORIENTED_EDGE('',*,*,#258,.T.);
#400=ORIENTED_EDGE('',*,*,#287,.T.);
#401=ORIENTED_EDGE('',*,*,#281,.T.);
#402=ORIENTED_EDGE('',*,*,#284,.T.);
#403=ORIENTED_EDGE('',*,*,#286,.T.);
#404=ORIENTED_EDGE('',*,*,#272,.F.);
#405=ORIENTED_EDGE('',*,*,#262,.F.);
#406=ORIENTED_EDGE('',*,*,#266,.F.);
#407=ORIENTED_EDGE('',*,*,#269,.F.);
#408=CYLINDRICAL_SURFACE('',#439,10.);
#409=CYLINDRICAL_SURFACE('',#442,15.);
#410=CYLINDRICAL_SURFACE('',#450,10.);
#411=CYLINDRICAL_SURFACE('',#453,10.);
#412=CYLINDRICAL_SURFACE('',#455,15.);
#413=CYLINDRICAL_SURFACE('',#457,10.);
#414=ADVANCED_FACE('',(#33),#408,.T.);
#415=ADVANCED_FACE('',(#34),#409,.F.);
#416=ADVANCED_FACE('',(#35),#16,.F.);
#417=ADVANCED_FACE('',(#36),#410,.T.);
#418=ADVANCED_FACE('',(#37),#17,.F.);
#419=ADVANCED_FACE('',(#38),#411,.T.);
#420=ADVANCED_FACE('',(#39),#412,.F.);
#421=ADVANCED_FACE('',(#40),#413,.T.);
#422=ADVANCED_FACE('',(#41),#18,.F.);
#423=ADVANCED_FACE('',(#42),#19,.F.);
#424=ADVANCED_FACE('',(#43),#20,.F.);
#425=ADVANCED_FACE('',(#44),#21,.T.);
#426=ADVANCED_FACE('',(#45),#22,.T.);
#427=ADVANCED_FACE('',(#46),#23,.T.);
#428=ADVANCED_FACE('',(#47),#24,.T.);
#429=ADVANCED_FACE('',(#48,#15),#25,.T.);
#430=ADVANCED_FACE('',(#49),#26,.T.);
#431=ADVANCED_FACE('',(#50),#27,.T.);
#432=ADVANCED_FACE('',(#51),#28,.T.);
#433=ADVANCED_FACE('',(#52),#29,.T.);
#434=ADVANCED_FACE('',(#53),#30,.F.);
#435=ADVANCED_FACE('',(#54),#31,.T.);
#436=ADVANCED_FACE('',(#55),#32,.F.);
#437=CLOSED_SHELL('',(#414,#415,#416,#417,#418,#419,#420,#421,#422,#423,
#424,#425,#426,#427,#428,#429,#430,#431,#432,#433,#434,#435,#436));
#438=AXIS2_PLACEMENT_3D('placement',#594,#474,#475);
#439=AXIS2_PLACEMENT_3D('',#595,#476,#477);
#440=AXIS2_PLACEMENT_3D('',#598,#478,#479);
#441=AXIS2_PLACEMENT_3D('',#602,#481,#482);
#442=AXIS2_PLACEMENT_3D('',#604,#484,#485);
#443=AXIS2_PLACEMENT_3D('',#606,#486,#487);
#444=AXIS2_PLACEMENT_3D('',#609,#489,#490);
#445=AXIS2_PLACEMENT_3D('',#610,#491,#492);
#446=AXIS2_PLACEMENT_3D('',#622,#498,#499);
#447=AXIS2_PLACEMENT_3D('',#624,#500,#501);
#448=AXIS2_PLACEMENT_3D('',#626,#502,#503);
#449=AXIS2_PLACEMENT_3D('',#629,#505,#506);
#450=AXIS2_PLACEMENT_3D('',#630,#507,#508);
#451=AXIS2_PLACEMENT_3D('',#633,#510,#511);
#452=AXIS2_PLACEMENT_3D('',#634,#512,#513);
#453=AXIS2_PLACEMENT_3D('',#638,#516,#517);
#454=AXIS2_PLACEMENT_3D('',#640,#518,#519);
#455=AXIS2_PLACEMENT_3D('',#642,#521,#522);
#456=AXIS2_PLACEMENT_3D('',#645,#524,#525);
#457=AXIS2_PLACEMENT_3D('',#646,#526,#527);
#458=AXIS2_PLACEMENT_3D('',#649,#529,#530);
#459=AXIS2_PLACEMENT_3D('',#650,#531,#532);
#460=AXIS2_PLACEMENT_3D('',#660,#538,#539);
#461=AXIS2_PLACEMENT_3D('',#662,#541,#542);
#462=AXIS2_PLACEMENT_3D('',#664,#544,#545);
#463=AXIS2_PLACEMENT_3D('',#673,#550,#551);
#464=AXIS2_PLACEMENT_3D('',#679,#555,#556);
#465=AXIS2_PLACEMENT_3D('',#685,#560,#561);
#466=AXIS2_PLACEMENT_3D('',#688,#564,#565);
#467=AXIS2_PLACEMENT_3D('',#699,#572,#573);
#468=AXIS2_PLACEMENT_3D('',#705,#577,#578);
#469=AXIS2_PLACEMENT_3D('',#709,#581,#582);
#470=AXIS2_PLACEMENT_3D('',#713,#585,#586);
#471=AXIS2_PLACEMENT_3D('',#714,#587,#588);
#472=AXIS2_PLACEMENT_3D('',#716,#590,#591);
#473=AXIS2_PLACEMENT_3D('',#717,#592,#593);
#474=DIRECTION('axis',(0.,0.,1.));
#475=DIRECTION('refdir',(1.,0.,0.));
#476=DIRECTION('center_axis',(0.,0.,1.));
#477=DIRECTION('ref_axis',(-0.547722557505165,0.836660026534076,0.));
#478=DIRECTION('center_axis',(0.,0.,-1.));
#479=DIRECTION('ref_axis',(-0.547722557505165,0.836660026534076,0.));
#480=DIRECTION('',(0.,0.,-1.));
#481=DIRECTION('center_axis',(0.,0.,1.));
#482=DIRECTION('ref_axis',(-0.547722557505165,0.836660026534076,0.));
#483=DIRECTION('',(0.,0.,1.));
#484=DIRECTION('center_axis',(0.,0.,-1.));
#485=DIRECTION('ref_axis',(1.,0.,0.));
#486=DIRECTION('center_axis',(0.,0.,1.));
#487=DIRECTION('ref_axis',(1.,0.,0.));
#488=DIRECTION('',(0.,0.,-1.));
#489=DIRECTION('center_axis',(0.,0.,-1.));
#490=DIRECTION('ref_axis',(1.,0.,0.));
#491=DIRECTION('center_axis',(0.,0.,1.));
#492=DIRECTION('ref_axis',(1.,0.,0.));
#493=DIRECTION('',(-1.,0.,0.));
#494=DIRECTION('',(0.,1.,0.));
#495=DIRECTION('',(-1.,0.,0.));
#496=DIRECTION('',(0.,-1.,0.));
#497=DIRECTION('',(-1.,0.,0.));
#498=DIRECTION('center_axis',(0.,0.,1.));
#499=DIRECTION('ref_axis',(0.547722557505167,0.836660026534075,0.));
#500=DIRECTION('center_axis',(0.,0.,1.));
#501=DIRECTION('ref_axis',(1.,0.,0.));
#502=DIRECTION('center_axis',(0.,0.,1.));
#503=DIRECTION('ref_axis',(-0.547722557505167,0.836660026534075,0.));
#504=DIRECTION('',(-1.,0.,0.));
#505=DIRECTION('center_axis',(0.,0.,1.));
#506=DIRECTION('ref_axis',(0.547722557505165,0.836660026534076,0.));
#507=DIRECTION('center_axis',(0.,0.,-1.));
#508=DIRECTION('ref_axis',(0.547722557505165,0.836660026534076,0.));
#509=DIRECTION('',(0.,0.,1.));
#510=DIRECTION('center_axis',(0.,0.,-1.));
#511=DIRECTION('ref_axis',(0.547722557505165,0.836660026534076,0.));
#512=DIRECTION('center_axis',(0.,-1.,0.));
#513=DIRECTION('ref_axis',(0.,0.,-1.));
#514=DIRECTION('',(0.,0.,-1.));
#515=DIRECTION('',(1.,0.,0.));
#516=DIRECTION('center_axis',(0.,0.,1.));
#517=DIRECTION('ref_axis',(-0.547722557505167,0.836660026534075,0.));
#518=DIRECTION('center_axis',(0.,0.,-1.));
#519=DIRECTION('ref_axis',(-0.547722557505167,0.836660026534075,0.));
#520=DIRECTION('',(0.,0.,1.));
#521=DIRECTION('center_axis',(0.,0.,-1.));
#522=DIRECTION('ref_axis',(1.,0.,0.));
#523=DIRECTION('',(0.,0.,-1.));
#524=DIRECTION('center_axis',(0.,0.,-1.));
#525=DIRECTION('ref_axis',(1.,0.,0.));
#526=DIRECTION('center_axis',(0.,0.,-1.));
#527=DIRECTION('ref_axis',(0.547722557505167,0.836660026534075,0.));
#528=DIRECTION('',(0.,0.,1.));
#529=DIRECTION('center_axis',(0.,0.,-1.));
#530=DIRECTION('ref_axis',(0.547722557505167,0.836660026534075,0.));
#531=DIRECTION('center_axis',(0.,0.,-1.));
#532=DIRECTION('ref_axis',(-1.,0.,0.));
#533=DIRECTION('',(1.,0.,0.));
#534=DIRECTION('',(0.,1.,0.));
#535=DIRECTION('',(1.,0.,0.));
#536=DIRECTION('',(0.,-1.,0.));
#537=DIRECTION('',(1.,0.,0.));
#538=DIRECTION('center_axis',(0.,-1.,0.));
#539=DIRECTION('ref_axis',(0.,0.,-1.));
#540=DIRECTION('',(0.,0.,-1.));
#541=DIRECTION('center_axis',(0.,-1.,0.));
#542=DIRECTION('ref_axis',(0.,0.,-1.));
#543=DIRECTION('',(0.,0.,1.));
#544=DIRECTION('center_axis',(1.,0.,0.));
#545=DIRECTION('ref_axis',(0.,0.,-1.));
#546=DIRECTION('',(0.,0.,-1.));
#547=DIRECTION('',(0.,1.,0.));
#548=DIRECTION('',(0.,0.,-1.));
#549=DIRECTION('',(0.,1.,0.));
#550=DIRECTION('center_axis',(0.,0.,1.));
#551=DIRECTION('ref_axis',(1.,0.,0.));
#552=DIRECTION('',(1.,0.,0.));
#553=DIRECTION('',(1.,0.,0.));
#554=DIRECTION('',(0.,1.,0.));
#555=DIRECTION('center_axis',(-1.,0.,0.));
#556=DIRECTION('ref_axis',(0.,0.,1.));
#557=DIRECTION('',(0.,0.,1.));
#558=DIRECTION('',(0.,0.,1.));
#559=DIRECTION('',(0.,1.,0.));
#560=DIRECTION('center_axis',(0.,0.,-1.));
#561=DIRECTION('ref_axis',(-1.,0.,0.));
#562=DIRECTION('',(-1.,0.,0.));
#563=DIRECTION('',(-1.,0.,0.));
#564=DIRECTION('center_axis',(0.,1.,0.));
#565=DIRECTION('ref_axis',(0.,0.,1.));
#566=DIRECTION('',(0.,0.,1.));
#567=DIRECTION('',(-1.,0.,0.));
#568=DIRECTION('',(0.,0.,-1.));
#569=DIRECTION('',(1.,0.,-2.10443076850117E-33));
#570=DIRECTION('',(0.,0.,1.));
#571=DIRECTION('',(0.,0.,1.));
#572=DIRECTION('center_axis',(2.10443076850117E-33,0.,1.));
#573=DIRECTION('ref_axis',(1.,0.,-2.10443076850117E-33));
#574=DIRECTION('',(0.,1.,0.));
#575=DIRECTION('',(1.,0.,-2.10443076850117E-33));
#576=DIRECTION('',(0.,-1.,0.));
#577=DIRECTION('center_axis',(1.,0.,0.));
#578=DIRECTION('ref_axis',(0.,0.,-1.));
#579=DIRECTION('',(0.,1.,0.));
#580=DIRECTION('',(0.,0.,-1.));
#581=DIRECTION('center_axis',(0.,0.,-1.));
#582=DIRECTION('ref_axis',(-1.,0.,0.));
#583=DIRECTION('',(0.,1.,0.));
#584=DIRECTION('',(-1.,0.,0.));
#585=DIRECTION('center_axis',(-1.,0.,0.));
#586=DIRECTION('ref_axis',(0.,0.,1.));
#587=DIRECTION('center_axis',(1.,0.,0.));
#588=DIRECTION('ref_axis',(0.,0.,1.));
#589=DIRECTION('',(0.,0.,1.));
#590=DIRECTION('center_axis',(0.,1.,0.));
#591=DIRECTION('ref_axis',(0.,0.,1.));
#592=DIRECTION('center_axis',(0.,1.,0.));
#593=DIRECTION('ref_axis',(1.,0.,0.));
#594=CARTESIAN_POINT('',(0.,0.,0.));
#595=CARTESIAN_POINT('Origin',(307.912878474779,60.,-5.));
#596=CARTESIAN_POINT('',(298.747727084868,64.,-5.));
#597=CARTESIAN_POINT('',(307.912878474779,70.,-5.));
#598=CARTESIAN_POINT('Origin',(307.912878474779,60.,-5.));
#599=CARTESIAN_POINT('',(307.912878474779,70.,-445.));
#600=CARTESIAN_POINT('',(307.912878474779,70.,-5.));
#601=CARTESIAN_POINT('',(298.747727084868,64.,-445.));
#602=CARTESIAN_POINT('Origin',(307.912878474779,60.,-445.));
#603=CARTESIAN_POINT('',(298.747727084868,64.,-5.));
#604=CARTESIAN_POINT('Origin',(285.,70.,-5.));
#605=CARTESIAN_POINT('',(271.252272915132,64.,-445.));
#606=CARTESIAN_POINT('Origin',(285.,70.,-445.));
#607=CARTESIAN_POINT('',(271.252272915132,64.,-5.));
#608=CARTESIAN_POINT('',(271.252272915132,64.,-5.));
#609=CARTESIAN_POINT('Origin',(285.,70.,-5.));
#610=CARTESIAN_POINT('Origin',(200.,35.,-445.));
#611=CARTESIAN_POINT('',(400.,70.,-445.));
#612=CARTESIAN_POINT('',(200.,70.,-445.));
#613=CARTESIAN_POINT('',(400.,5.,-445.));
#614=CARTESIAN_POINT('',(400.,70.,-445.));
#615=CARTESIAN_POINT('',(0.,5.,-445.));
#616=CARTESIAN_POINT('',(200.,5.,-445.));
#617=CARTESIAN_POINT('',(0.,70.,-445.));
#618=CARTESIAN_POINT('',(0.,17.5,-445.));
#619=CARTESIAN_POINT('',(92.0871215252208,70.,-445.));
#620=CARTESIAN_POINT('',(200.,70.,-445.));
#621=CARTESIAN_POINT('',(101.252272915132,64.,-445.));
#622=CARTESIAN_POINT('Origin',(92.0871215252208,60.,-445.));
#623=CARTESIAN_POINT('',(128.747727084868,64.,-445.));
#624=CARTESIAN_POINT('Origin',(115.,70.,-445.));
#625=CARTESIAN_POINT('',(137.912878474779,70.,-445.));
#626=CARTESIAN_POINT('Origin',(137.912878474779,60.,-445.));
#627=CARTESIAN_POINT('',(262.087121525221,70.,-445.));
#628=CARTESIAN_POINT('',(200.,70.,-445.));
#629=CARTESIAN_POINT('Origin',(262.087121525221,60.,-445.));
#630=CARTESIAN_POINT('Origin',(262.087121525221,60.,-5.));
#631=CARTESIAN_POINT('',(262.087121525221,70.,-5.));
#632=CARTESIAN_POINT('',(262.087121525221,70.,-5.));
#633=CARTESIAN_POINT('Origin',(262.087121525221,60.,-5.));
#634=CARTESIAN_POINT('Origin',(200.,70.,-225.));
#635=CARTESIAN_POINT('',(137.912878474779,70.,-5.));
#636=CARTESIAN_POINT('',(137.912878474779,70.,-5.));
#637=CARTESIAN_POINT('',(200.,70.,-5.));
#638=CARTESIAN_POINT('Origin',(137.912878474779,60.,-5.));
#639=CARTESIAN_POINT('',(128.747727084868,64.,-5.));
#640=CARTESIAN_POINT('Origin',(137.912878474779,60.,-5.));
#641=CARTESIAN_POINT('',(128.747727084868,64.,-5.));
#642=CARTESIAN_POINT('Origin',(115.,70.,-5.));
#643=CARTESIAN_POINT('',(101.252272915132,64.,-5.));
#644=CARTESIAN_POINT('',(101.252272915132,64.,-5.));
#645=CARTESIAN_POINT('Origin',(115.,70.,-5.));
#646=CARTESIAN_POINT('Origin',(92.0871215252208,60.,-5.));
#647=CARTESIAN_POINT('',(92.0871215252208,70.,-5.));
#648=CARTESIAN_POINT('',(92.0871215252208,70.,-5.));
#649=CARTESIAN_POINT('Origin',(92.0871215252208,60.,-5.));
#650=CARTESIAN_POINT('Origin',(200.,35.,-5.));
#651=CARTESIAN_POINT('',(0.,70.,-5.));
#652=CARTESIAN_POINT('',(200.,70.,-5.));
#653=CARTESIAN_POINT('',(0.,5.,-5.));
#654=CARTESIAN_POINT('',(0.,17.5,-5.));
#655=CARTESIAN_POINT('',(400.,5.,-5.));
#656=CARTESIAN_POINT('',(200.,5.,-5.));
#657=CARTESIAN_POINT('',(400.,70.,-5.));
#658=CARTESIAN_POINT('',(400.,70.,-5.));
#659=CARTESIAN_POINT('',(200.,70.,-5.));
#660=CARTESIAN_POINT('Origin',(200.,70.,-225.));
#661=CARTESIAN_POINT('',(0.,70.,-337.5));
#662=CARTESIAN_POINT('Origin',(200.,70.,-225.));
#663=CARTESIAN_POINT('',(400.,70.,-450.));
#664=CARTESIAN_POINT('Origin',(425.,0.,25.));
#665=CARTESIAN_POINT('',(425.,0.,25.));
#666=CARTESIAN_POINT('',(425.,0.,-475.));
#667=CARTESIAN_POINT('',(425.,0.,25.));
#668=CARTESIAN_POINT('',(425.,5.,-475.));
#669=CARTESIAN_POINT('',(425.,0.,-475.));
#670=CARTESIAN_POINT('',(425.,5.,25.));
#671=CARTESIAN_POINT('',(425.,5.,25.));
#672=CARTESIAN_POINT('',(425.,0.,25.));
#673=CARTESIAN_POINT('Origin',(-25.,0.,25.));
#674=CARTESIAN_POINT('',(-25.,0.,25.));
#675=CARTESIAN_POINT('',(-25.,0.,25.));
#676=CARTESIAN_POINT('',(-25.,5.,25.));
#677=CARTESIAN_POINT('',(-25.,5.,25.));
#678=CARTESIAN_POINT('',(-25.,0.,25.));
#679=CARTESIAN_POINT('Origin',(-25.,0.,-475.));
#680=CARTESIAN_POINT('',(-25.,0.,-475.));
#681=CARTESIAN_POINT('',(-25.,0.,-475.));
#682=CARTESIAN_POINT('',(-25.,5.,-475.));
#683=CARTESIAN_POINT('',(-25.,5.,-475.));
#684=CARTESIAN_POINT('',(-25.,0.,-475.));
#685=CARTESIAN_POINT('Origin',(425.,0.,-475.));
#686=CARTESIAN_POINT('',(425.,0.,-475.));
#687=CARTESIAN_POINT('',(425.,5.,-475.));
#688=CARTESIAN_POINT('Origin',(200.,5.,-225.));
#689=CARTESIAN_POINT('',(400.,5.,-450.));
#690=CARTESIAN_POINT('',(400.,5.,-337.5));
#691=CARTESIAN_POINT('',(410.,5.,-450.));
#692=CARTESIAN_POINT('',(305.,5.,-450.));
#693=CARTESIAN_POINT('',(410.,5.,0.));
#694=CARTESIAN_POINT('',(410.,5.,-112.5));
#695=CARTESIAN_POINT('',(400.,5.,0.));
#696=CARTESIAN_POINT('',(100.,5.,0.));
#697=CARTESIAN_POINT('',(400.,5.,-337.5));
#698=CARTESIAN_POINT('',(0.,5.,-337.5));
#699=CARTESIAN_POINT('Origin',(0.,0.,0.));
#700=CARTESIAN_POINT('',(410.,75.,0.));
#701=CARTESIAN_POINT('',(410.,0.,-8.62816615085482E-31));
#702=CARTESIAN_POINT('',(400.,75.,0.));
#703=CARTESIAN_POINT('',(0.,75.,0.));
#704=CARTESIAN_POINT('',(400.,37.5,0.));
#705=CARTESIAN_POINT('Origin',(410.,0.,-8.62816615085482E-31));
#706=CARTESIAN_POINT('',(410.,75.,-450.));
#707=CARTESIAN_POINT('',(410.,0.,-450.));
#708=CARTESIAN_POINT('',(410.,75.,-8.62816615085482E-31));
#709=CARTESIAN_POINT('Origin',(410.,0.,-450.));
#710=CARTESIAN_POINT('',(400.,75.,-450.));
#711=CARTESIAN_POINT('',(400.,37.5,-450.));
#712=CARTESIAN_POINT('',(410.,75.,-450.));
#713=CARTESIAN_POINT('Origin',(0.,0.,-450.));
#714=CARTESIAN_POINT('Origin',(400.,75.,-450.));
#715=CARTESIAN_POINT('',(400.,75.,-337.5));
#716=CARTESIAN_POINT('Origin',(205.,75.,-225.));
#717=CARTESIAN_POINT('Origin',(205.,0.,-225.));
#718=UNCERTAINTY_MEASURE_WITH_UNIT(LENGTH_MEASURE(0.01),#722,
'DISTANCE_ACCURACY_VALUE',
'Maximum model space distance between geometric entities at asserted c
onnectivities');
#719=UNCERTAINTY_MEASURE_WITH_UNIT(LENGTH_MEASURE(0.01),#722,
'DISTANCE_ACCURACY_VALUE',
'Maximum model space distance between geometric entities at asserted c
onnectivities');
#720=(
GEOMETRIC_REPRESENTATION_CONTEXT(3)
GLOBAL_UNCERTAINTY_ASSIGNED_CONTEXT((#718))
GLOBAL_UNIT_ASSIGNED_CONTEXT((#722,#724,#723))
REPRESENTATION_CONTEXT('','3D')
);
#721=(
GEOMETRIC_REPRESENTATION_CONTEXT(3)
GLOBAL_UNCERTAINTY_ASSIGNED_CONTEXT((#719))
GLOBAL_UNIT_ASSIGNED_CONTEXT((#722,#724,#723))
REPRESENTATION_CONTEXT('','3D')
);
#722=(
LENGTH_UNIT()
NAMED_UNIT(*)
SI_UNIT(.MILLI.,.METRE.)
);
#723=(
NAMED_UNIT(*)
SI_UNIT($,.STERADIAN.)
SOLID_ANGLE_UNIT()
);
#724=(
NAMED_UNIT(*)
PLANE_ANGLE_UNIT()
SI_UNIT($,.RADIAN.)
);
#725=SHAPE_DEFINITION_REPRESENTATION(#726,#727);
#726=PRODUCT_DEFINITION_SHAPE('',$,#729);
#727=SHAPE_REPRESENTATION('',(#438),#720);
#728=PRODUCT_DEFINITION_CONTEXT('part definition',#733,'design');
#729=PRODUCT_DEFINITION('printer shelf v8','printer shelf v8',#730,#728);
#730=PRODUCT_DEFINITION_FORMATION('',$,#735);
#731=PRODUCT_RELATED_PRODUCT_CATEGORY('printer shelf v8',
'printer shelf v8',(#735));
#732=APPLICATION_PROTOCOL_DEFINITION('international standard',
'automotive_design',2009,#733);
#733=APPLICATION_CONTEXT(
'Core Data for Automotive Mechanical Design Process');
#734=PRODUCT_CONTEXT('part definition',#733,'mechanical');
#735=PRODUCT('printer shelf v8','printer shelf v8',$,(#734));
#736=PRESENTATION_STYLE_ASSIGNMENT((#737));
#737=SURFACE_STYLE_USAGE(.BOTH.,#738);
#738=SURFACE_SIDE_STYLE('',(#739));
#739=SURFACE_STYLE_FILL_AREA(#740);
#740=FILL_AREA_STYLE('Steel - Satin',(#741));
#741=FILL_AREA_STYLE_COLOUR('Steel - Satin',#742);
#742=COLOUR_RGB('Steel - Satin',0.627450980392157,0.627450980392157,0.627450980392157);
ENDSEC;
END-ISO-10303-21;
